Karma

Kaha Hola Ghara Bara

Karma



Solo No 1 (Play twice)
solo:1 
E|----------------------------------|
B|----------------------------------|
G|--------------------2-------------|
D|---1-1h2-2-2-1-2s4-4-4s2-2-2-1-2--|
A|-2--------------------------------|
E|----------------------------------|

solo:2
e|----------------------------------|
B|----------------------------------|
G|--2-------------2-----------------|
D|-4-4s2-2-2-1-2s4-4s2-2-2-2-2------|
A|----------------------------------|
E|----------------------------------|

Another way to Play this Solo. Provided By Mr Saujan
Solo No 1 (Play twice)                     Solo No 2 (Play twice)
E|---------------------------------------| E|-------------------| 
B|---------------------------------------| B|-------------------|
G|---------------------------------------| G|-------------------|
D|-----------------------7---------------| D|----7--------------|
A|---6-6h7---7-7-7h9---9---9h7--7-7-6s7--| A|--9---9h7--7-7-6s7-|
E|-7-------------------------------------| E|-------------------|

E                   E
kaha hola ghara bar kaha hola gaun
 
(Solo No 2)

E                   E
kaha hola ghara bar kaha hola gaun 
A                        E
chitti lekhi pataula hai k ho timro nau
A                        E
chitti lekhi pataula hai k ho timro nau
E                   E
kaha hola ghara bar kaha hola gaun
 
 
C       D      E  E    E
               he hehe he
C       D      E  E    E
               he hehe he
 
Continue with the same chords!!!!1
 
[himal chuli pallo patti chai chai garne khola]*2
[luki chori launchu maya binti na bhanu hola]*2
himal chuli pallo patti chai chai garne khola
 
[he he he]*2
 
[pani paryo pandharai ma gham lagyo barama]*2
[jata heryo maya matrai kahile lagu gahrama]*2
pani paryo pandharai ma gham lagyo barama
 
[he he he]*2
 
e|---------------|
B|---------------|
G|---------------|
D|---------------|
A|-77775-5-------|
E|------7---753--|

e|-12-10-10-14-12-10-12-10-10-14-12-10-12-10-10-14-12-10-10--|
B|-----------------------------------------------------------|
G|-----------------------------------------------------------|
D|-----------------------------------------------------------|
A|-----------------------------------------------------------|
E|-----------------------------------------------------------|

e|-10--------------------------------------------------|
B|---10-10-10------------------------------------------|
G|------------12-12-12-11-11-11-10-10-10---------------|
D|---------------------------------------777s12-12-12--|
A|-----------------------------------------------------|
E|-----------------------------------------------------|

e|--------------------------------------------------------|
B|--------------------------------------------------------|
G|-14-14-14-14-14-14-14-12-12-12-11-11-11-9-9-9s11-11-11--|
D|--------------------------------------------------------|
A|--------------------------------------------------------|
E|--------------------------------------------------------|

e|-----------------------------------------------------9-10-11-12--|
B|-----------------------------------------------------9-10-11-12--|
G|-12-12-12-12-11-11-11--------------------------------9-10-11-12--|
D|----------------------12-12-12-9-9-9-----------------9-10-11-12--|
A|-------------------------------------12-10-9---------9-10-11-12--|
E|---------------------------------------------12-10---9-10-11-12--|

[fool diye oolai jala aauti laijau chino]*2
[bhule pap lagla hai yo sochjo titho]*2
kaha hola ghara bara kaha hola gaun