Wildfire
Bipul Chettri
4,799 Views
View Comments
Tuning: Standard (Capo at 4th Fret)


Tab 1
G#----------------------|
D#--12------------------|
B-----0-11-0----0---0---|
F#-----------11---0-----|
C#----------------------|
G#--12------------------|

Tab 2
G#---------------------|
D#--7------------------|
B-----0-6-0----0---0---|
F#-----------6---0-----|
C#---------------------|
G#--7------------------|

Tab 3
G#--------------------------------------------------|
D#--7----------------------0-----0-----0-----0------|
B-----0-6-0------------------0-----0-----0-----0----|
F#----------------------8------6--------------------|
C#----------------6--7---------------9-----7------6-|
G#--7--------7--9-----------------------------------|

Tab 4
G#-----------------------------------------------------|
D#--12----------------------0-----0-----0-----0--------|
B-----0-11-0------------------0-----0-----0-----0------|
F#----------------------8------6---------------------0-|
C#----------------6--7---------------9-----7------6----|
G#--12--------7--9-------------------------------------|

Dadhelo lagyo tyo pari daada saajha tira (Tab-1 x 2, Tab-2 x 2)
Lau hai feri man ma mero lagyo pira (Tab-1 x 2, Tab-2 x 2)
batasha ma failiyo aago sarara (Tab-1 x 2, Tab-2 x 2)
yaad haru timro farkera aayo jhalala la (Tab-1 x 2, Tab-2, Tab-3)

(Chorus starts at the middle of Tab-3)
Bujhaideu na jali raane yo man
pakdi deu na udi raane yo man (Tab 1, Tab 4)

Bujhaideu na Jali rahane yo man(Tab 2, Tab 3)
Pakdi deu na udi rahane yo man(Tab 1, Tab 4)

(Same Follows to the next verse and Chorus Part)

charai tira adhyaro n?ai adhyaro cha
aaja samma sapana haru adhuro nai cha
kasari bujhau yo nabujhne rahar haru
dina ra raat jhai kahilai namilne sapanaa haru

Bujhaideu na Jali rahane yo man
Pakdi deu na udi rahane yo man
          
Advertisement

Comments





Advertisement
Find Us On Facebook



Advertisement