X-Marika

Yo Hamro Nepal

X-Marika



G
yo mero desh malai
D#||-------9----10--10-10--10--10--|-------9----10--10-10--10--10--|
A#||-------10---10--10-10--10--10--|-------10---10--10-10--10--10--|
F#||--9----------------------------|--9----------------------------|
C#||-------------------------------|-------------------------------|
G#||-------------------------------|-------------------------------|
D#||-------------------------------|-------------------------------|

-------9----10--10-10--10--10--|-------9----10--10-10--10--10--|
-------10---10--10-10--10--10--|-------10---10--10-10--10--10--|
--9----------------------------|--9----------------------------|
-------------------------------|-------------------------------|
-------------------------------|-------------------------------|
-------------------------------|-------------------------------|

-------9----10--10-10--10--10--|-------9----10--10-10--10--10--|
-------10---10--10-10--10--10--|-------10---10--10-10--10--10--|
--9----------------------------|--9----------------------------|
-------------------------------|-------------------------------|
-------------------------------|-------------------------------|
-------------------------------|-------------------------------|

intro solo
D#||------------------------------|
A#||-----10--12-----10--9---------|
F#||--9----------9---------11--9--|
C#||------------------------------|
G#||------------------------------|
C#||------------------------------|
-------------------------------|------------------------------|
-----10--12-----10--9--12--10--|-----10--12-----10--9---------|
--9----------9-----------------|--9----------9---------11--9--|
-------------------------------|------------------------------|
-------------------------------|------------------------------|
-------------------------------|------------------------------|

-------------------------------|------------------------------|
-----10--12-----10--9--12--10--|-----10--12-----10--9---------|
--9----------9-----------------|--9----------9---------11--9--|
-------------------------------|------------------------------|
-------------------------------|------------------------------|
-------------------------------|------------------------------|