HongKong Pokhara Tab
Kandara
1,877 Views
View Comments
Hiun ta hoina phaphreko dangura
Maya bhayo Amilo aangura
Honkong Pokhara
Nirmohi aphno ko cha ra

E|------------1-0---1-0--------------------------|
B|----------1-----1-----1-----5-3---5-3----------|
G|----0-2]----------------0-3-----3------5---0-2-|
D|-[3--------------------------------------3-----|
A|-----------------------------------------------|
E|-----------------------------------------------|

E|-----------------------------------------------------------------|
B|-----------------------------------------------------------------|
G|-2-2-3-2-0----0---------2-0---2-2-3-2-0---0---------2----------2-|
D|-----------3----3-0-0-3-----------------3---3-0-0-3---3--3-5-5---|
A|-----------------------------------------------------------------|
E|-----------------------------------------------------------------|


Bidesinu rekhiyo karmaima bhala ropi nabola marmaima
Jiu ta hoina dhungako chapani aaunla maya namare ma pani
Honkong Pokhara
Nirmohi aphno ko cha ra


E|---------------6-5----------------------------------------------------------|
B|-6-6-6-8-6-8-6-----6--[6-8-6-5]--5-6-8-6------6---6-5-6-8-5-6-5-------------|
G|--------------------------------------------5---5---------------5-7-5-3p2-1-|
D|----------------------------------------------------------------------------|
A|----------------------------------------------------------------------------|
E|----------------------------------------------------------------------------|

E|------------------------------|
B|-----------5-6---6-5---6-5-6--|
G|---7---7-7-----7-----5--------|
D|-5---5------------------------|
A|------------------------------|
E|------------------------------|


          
Advertisement

Comments





Advertisement
Find Us On Facebook



Advertisement