Cobweb
Jiune Hodbazi ma
Cobweb
1,615 Views
View Comments
Intro:

Play plucking #1 (shown at the end)
Play plucking #2
Play plucking #3

D           Bb
Jiune hod baji ma
D               Bb
Jeevan ko artha bhulechu
D                Bb
Jiuna khojda khojdai
D               Bb
Dherai choti marechu ma

A               Bb
Dukha ma aasu jhari dida
A                  Bb
Jeevan lai laas samjanthe
A                 Bb
Sukha ma hasna chahada chahadai
A                  Bb
Jiunu nai birsechu aaja
         Bb
Ru ru ru ru
   D
Ru ru..

D                Bb
Sukha khojda khojdai
D                  Bb
Hasnu nai birsechu ma
D             Bb
Hitesi dherai chan yaha
D                Bb
Rune chaina kohi mrityu ma

A             Bb
Rudai aaye sansar ma
A               Bb
Aasu nai jeevan banyo mero
A            Bb
Jaane chu sansar lai chodi
A              Bb
Antim haaso haasi
         Bb
Ru ru ru ru
   D
Ru ru...

Solo #1
| D | Bb | x 4
| A | Bb | x 4

D           Bb
Jiune hod baji ma
D               Bb
Jeevan ko artha bhulechu
D                Bb
Jiuna khojda khojdai
D               Bb
Dherai choti marechu ma

A             Bb
Rudai aaye sansar ma
A               Bb
Aasu nai jeevan banyo mero
A            Bb
Jaane chu sansar lai chodi
A              Bb
Antim haaso haasi

Solo #2
| D | Bb | x 4
| A | Bb | x 4

Plucking #1:
E -------------------------------------------------
B ----1---1---1---1---1--3---3---3--3---3---3------
G -----2---2---2---2---2--2---2---2--2---2---2-----
D --0---0---0---0---0------0---0------0---0--------
A -------------------------------------------------
E -------------------------------------------------

E --1---3---1-----0---0---0---0--------------------
B ---3---3---3-----1---1---1---1-------------------
G ----2---2---------2---2---2---2------------------
D --------------0----------------------------------
A -------------------------------------------------
E -------------------------------------------------

E --1---0------------------------------------------
B ---1---1--1h3------------------------------------
G ----2---2----------------------------------------
D -------------------------------------------------
A -------------------------------------------------
E -------------------------------------------------

Plucking #2:
E -------------------------------------------------
B ----7---7-----6---6----7---7-----6---6-----------
G -----7---------7--------7---------7--------------
D --0---0-----0---0----0---0-----0---0-------------
A -------------------------------------------------
E -------------------------------------------------

Plucking #3:
E --------0-----------0---0------------------------
B ----7----7--7--------6---6--6--------------------
G -----7----7----------7----7----------------------
D --0---0-----------0------------------------------
A -------------------------------------------------
E -------------------------------------------------
          
Advertisement

Comments





Advertisement
Find Us On Facebook



Advertisement