Bihani Ko Mirmire
Buds Band
1,371 Views
View Comments
  G            C9      G       C9          G
E-3--3---3---|-3--3----3--3--|-3--3--3---|-3--3--3---|
B-3---3---3--|-3---3---3---3-|-3---3--3--|-3---3--3--|
G-0----3---3-|-0----3--0----3|-0----3--3-|-0----3--3-|
D-0----------|-2-------0-----|-2---------|-0---------|twice
A-2----------|-3-------2-----|-3---------|-2---------|
E-3----------|---------3-----|-----------|-3---------|
 
 Em          Am           D            D
E-0--0--0---|--0--0--0---|--2--2--2---|-2-2-|
B-0---0--0--|--1---1--1--|--3---3--3--|-3-3-|
G-0----0--0-|--2----2--2-|--2----2--2-|-2-2-|hit 9 times
D-2---------|--2---------|--0---------|-0-2-|
A-2---------|--0---------|------------|-----|
E-0---------|--0---------|------------|-----|


first solo;
E---------7---------------------------------------|
B-----8-----10-8---810-12p10-8-8h10p8----10-8----|
G-59---9--------9---------------------12---------|
D-------------------------------------------------|
A-------------------------------------------------|
E-------------------------------------------------|

E-1010p7---7-8-7--------------------------10-------------------|
B--------8-------8810--1010brp8-1210-8-10b--10h12p10-8-------|
G--------------------------------------------------------------|
D--------------------------------------------------------------|
A--------------------------------------------------------------|
E--------------------------------------------------------------|

E-----8--------10-------------------------------------|
B-----------------12-10-8---58-7---------------------|
G-59---9-912-------------------9-59-7--------------|
D-----------------------------------------9-7-2-------|
A-----------------------------------------------------|
E-----------------------------------------------------|

2nd solo;
E-----------------------------------------------------|
B-----------------8--7-----87-------------------------|
G---------------------7-------7--5--4--2--4---2h4-4---|
D--7-9-7-9-7-9-7-------7-7------------------5---------|
A-----------------------------------------------------|
E-----------------------------------------------------|

E----------------7-------------------------------------------|
B--------------8---10--8h10--------8---12-10-8--8h10-10b-----|
G----------7-9--------------9--79---9---------9-------------|
D------7-9---------------------------------------------------|
A-7-10-------------------------------------------------------|
E------------------------------------------------------------|

E-----------------------37-8-7----------10-1012-------|
B-812-10-8-12-10-8---8---------10--8-10----------------|
G-------------------9-----------------------------------|
D-------------------------------------------------------|
A-------------------------------------------------------|
E-------------------------------------------------------|

 G   C   Em   D  G 
Bihani ko mirmire ma samjhanchu timilai
 G  C  Em   D   G 
Saanjha ko ekanta ma samjhanchu timilai
  Em   D    G 
Chodera jaana sakdina timilai, timilai


G 				D 
Eklo yo man ko pida haru ma
G 	  Em 			D 
saath timile dinthyo
G 					D 
Sukha dukha ka pal haru ma
G 	Em 			D 
saatha maile dinthe
  G 
Timilai, timilai

G 				D 
Juneli raat ma eklai basda
G 	  Em 			D 
tara harule gijyai dinccha
G 					D 
phoola haruko subaash sangai
G 	Em 			D 
samjhane garchu ma sandhai
  G 
Timilai, timilai
          
Advertisement

Comments





Advertisement
Find Us On Facebook



Advertisement