Albatross

Ma Ra Malai songs

Albatross



Tuning: Db(6),Ab(5),Db(4),Gb(3),Bb(2),Eb(1)


Intro Guitar 1 (Slap Back Delay and Distortion)
PM?????????????
----------------------------------------------
-----10--8---10--8---10--8----------------
------------9--------9--------9--------------
-7-7---7---7---7----7---7------------------
----------------------------------------------
----------------------------------------------
PM?????????????.
----------------------------------------------
-----10--8---10--8---10--8----------------
------------9--------9--------9--------------
---------------------------------------------
-8-8---8---8---8----8---8------------------
----------------------------------------------

----------------------------------------------
----------------------------------------------
----------------------------------------------
----------------------------------------------
----------------------------------------------
----------------------------------------------
Guitar 2
----------------------------------------------
---8--10--8--10--8----8--10--8--10--8--
--9--------------------9--------------------
-7---7---7--7--7---------------------------
----------------------8---8---8--8---8-----
----------------------------------------------

Intro BreakGuitar 2 (insert filler 1)
------------------|-------------------|-------
------------------|-------------------|-------
-----10p7--------|----7--------7----|.   [X3]
-----------10p7--|--10--10--10--10|---
------------------|--------------------|-----
-0-0-------------|-0-8-------8-------|------


---------------------------------------------
---------------------------------------------
---------------------------------------------
--8------------------------------------------
--8------------------------------------------
--8------------------------------------------



Guitar 1 (filler 1) 
---------------------------------------------
---------------------------------------------
--------               -----------------------
--0-0--      [X3]    ----------8------
--0-0-------------------------8-------------
--0-0-------------------------8-------------

----------------------------------------------
----------------------------------------------
-----10p7-----------------------------------
----------10p7--10-10-10-10~ -----------
----------------------------------------------
--0-0----------8--8--8--8-----------------

---------------------------------------------
-----10p7-----------------------------------
----------10p7--10-10-10-10-10----------
----------------------------------------------
--0-0----------8---8---8--8-----------------



----------------------------------------------
----------------------------------------------
---------10p7---------10-10-10-10~ ------------
----------------10p7--10-10-10-10~ ------------
----------------------------------------------
--0-0----------------8---8---8---8-----------------

----------------------------------------------
----------------------------------------------
-----10p7----------10-10-10-10-10---------
-------------10p7--10-10-10-10-10----------
----------------------------------------------
--0-0-------------8---8---8---8-----------------



-------------------------
-------------------------
---------10p7-----------
----------------10p7--
------------------------
--0-0-------------------

Chorus
Guitar 1
-------------------------------------------
--10-10--------5--5----------------------
--10-10-         5--5-----
--8--8-  [X2]  3--3-----   [X2]
--8--8-           -3--3-----
--8--8-----------3--3-----------------------


------------------------------------
--10-10----------5--5----8--8----
--9--9-              5--5----7--7----
--8--8-     [X2] 3--3----5--5----
--8--8-            -3--3----5--5----
--8--8------------3--3----5--5----
Guitar 2
-------------------------------------------
-------------------------------------------
--10-10-         5--5-----
--10-10-  [X2]5--5-----   [X2]
--8--8-           -3--3-----
--8--8-----------3--3-----------------------


------------------------------------
------------------------------------
--9--9-              5--5----7--7----
-10-10-     [X2]5--5----7--7----
--8--8-            -3--3----5--5----
--8--8------------3--3----5--5----



Break  (With wah and Distortion)
----------------------------------------------
----------------------------------------------
----------------------------------------------
------3p0------10--10--10--10-------------
----------3p0-------------------------------
--0-0---------8--8---8---8-----------------


---------------------------------------------
---------------------------------------------
---------------------------------------------
------3p0----------8------------------
----------3p0------8---------------------
--0-0--------------8---------------------

 Second Verse Guitar 1
---------------------------------------------
----------------------------------------
-------3p0-----------10-10-10-10~ ---
-------------3p0-------------------------------
--0-0---------------8--8--8--8-----------------

---------------------------------------------
----------------------------------------
--------3p0---------10-10-10-10-10---
--------------3p0-------------------------------
--0-0--------------8--8--8--8-----------------


Solo 1 (Slap Back Delay and Distortion)
---------------------------------------------
---------------------------------------------
-3~--3\5-5\7~-7\9-9\11~ -11\12-12/11-
---------------------------------------------
---------------------------------------------
---------------------------------------------


---------------------------------------------
-------1--1---------------5--5----------8----8
-3~-3--3---3\5-5\7--7--7?7\9-9\11--11-
---------------------------------------------
---------------------------------------------
---------------------------------------------


---------------------------------------------
---------------------------------------------
-11\13-13\14-14---17-17-17-17-17-17
---------------------------------------------
---------------------------------------------
-----------------------------------------------


---------------------------------------------
---------------------------------------------
-15-15-15-15-15-15-14-14-14-14-14-14
---------------------------------------------
---------------------------------------------
---------------------------------------------


---------------------------------------------
---------------------------------------------
-12-12-12-12-12-12-11\12-11-11\12-11
---------------------------------------------
---------------------------------------------
---------------------------------------------


---------------------------------------------
---------------------------------------------
-15-15\17-17\19~~~~~~~~~~~~~~~~~
---------------------------------------------
---------------------------------------------
---------------------------------------------



Chords in solo 1

-0---0---0---0---0
-0---0---0---0---0
-3---5---7---9--11
-0---0---0---0---0
-0---0---0---0---0
-5---7---8--10-12
Outro riff same as verse

Outro Solo
-----------------------------------------------------------
---------10h13-----------------------10h15--------------
-10h12--------10h12---------10h12--------10h12------ [X4]
------------------------10h12------------------------10h12
------------------------------------------------------------
------------------------------------------------------------