Mukti & Revival

Chaubani Cholo

Mukti & Revival



Chords used:
G7:
1st – 1
2nd – 0
3rd – 0
4th – 0
5th – 2
6th – 3
Intro:
| C | Am | F | G | x 2

C         Am
Chaubandi cholo
F   G            C       | Am | F | G |
Kalo sari kya suhayeko

C      Am
Hatai ma rumal
F         G
Nidhar ma tiko
| C  | Am           F G
       Ranga kati mileko

Hey...
| F | G | x 2

C     G7             Am      F
Chamachama gardai mero anganima
C    G7      Am         F    C   G7
Kina timi ayi nachna thaleki
       Am       F          C   Am
Phulbarima phuleko phula jhai
F   G           C    Am   F   G
Hoo nachna kina ayeki

F         G
Maya maile timrai lagi
F                    G
Timrai lagi maile yo jyanai phaleko ho
C     Am          F      G
Sirai ma fulbandi gala ma naugyadi
C           G7       Am           F              C     Am
Hey nakai ma phuli hoo kaan ma jhumka kati suhayeki
F  G               C    Am     F   G
Hoo nachna kina ayeki
hooo yeah

Chords during solo:

| C | Am | F | G | x 4

Solo:
E -------------------------------------15------------------------------
B ---13--10------10--13---15p17---15p17--15--13--15h13-----13----------
G -----------12-----------------------------------------14-------------
D ---------------------------------------------------------------------
A ---------------------------------------------------------------------
E ---------------------------------------------------------------------

E -----------5---------------------------------------------------------
B --------5------------------------------------------------------------
G ---7p9-------7h5--7p9--7--5----5h7h5----------5----------------------
D -----------------------------7--------7--5--7----7-------------------
A ---------------------------------------------------------------------
E ---------------------------------------------------------------------

E ---------------------------------------------------------------------
B ---8p10---8p10---8p10--8p10--10--8---5h6h5---5-----------------------
G -------------------------------------------7---5--7h5-----5----------
D -------------------------------------------------------7-------------
A ---------------------------------------------------------------------
E ---------------------------------------------------------------------

F         G
Maya maile timrai lagi
F                    G
Timrai lagi maile yo jyanai phaleko ho
C     Am         F       G
Sirai ma fulbandi gala ma naugyadi
C          G7         Am           F             C     Am
Hey nakai ma phuli hoo kaan ma jhumka kati suhayeki
F G                C   Am     F   G
Hoo nachna kina ayeki
hooo yeah

C         Am
Chaubandi cholo
F    G
Kalo sari
C        Am
Hatai ma rumal
F         G
Nidhar ma tiko
C        Am
Nakai ma phuli hoo
F           G
Kaan ma jhumka
           C    Am    F   G
Kati suhayeko

Repeat : C    Am    F   G

hooo hooo
Nachna kina hooo kina ayeki
Chaubandi cholo hatai ma rumal
Chaubandi cholo...