Mt 8848

Raat Gujarna

Mt 8848



C#m A
{Raat Gujarna ajha baaki chha
C#m A
Timro yaad aauna ajha baaki chha
Em B
Poorana tee din haru samjhera
Em B C#m
Piunu baaki chha }*2

C#m A
Samjhana ka tita-meetha pal
C#m A
Bedanaka saara tee prahar
Em B
Timile diyeka chot bhulauna-2
Em B C#m
Ajha baaki chha

C#m A
Jindagi jiuna ajha baaki chha
C#m A

Timro kasam bhoolna ajha baaki chha
Em B
Timile chhadi gaye pani
Em B C#m
Jiuna baaki chha.

C#m A
Mutu bhari betha liera
C#m A
Aakha bhari aashu liera
Em B
Antim sash timro aasha ma
Em B C#m
Chhodnu baaki chha.



Intro Guitar tab for “Raat Gujarna….” By Mt. 8848
C#m

E||--16p--12---2--16--17--16h--17p-16-|---------16--(16)-|

B||-----------14--------------------------|-17-14--17-------------|
G||*--------------------------------------|-------------------------|
D||*--------------------------------------|-------------------------|
A||---------------------------------------|-------------------------|
E||---------------------------------------|-------------------------|


B 2X
--14p--11-----16-14-16--14h--16p-14-|--------14--(14)-||
-----------12--------------------------|-16-12-16-------------||
---------------------------------------|------------------------*||
---------------------------------------|------------------------*||
---------------------------------------|-------------------------||
---------------------------------------|-------------------------||



C#m B A G# 2X
E||---16p-12-----16S--14--11--14S-12-|--9--12S11--8||
B||----------14---------------12-----------|------10------9--||
G||*---------------------------------------|-------------------*||
D||*---------------------------------------|-------------------*||
A||----------------------------------------|---------------------||
E||----------------------------------------|---------------------||


--9--9--8--8--8--9--9S--4--||
---------------------------||
---------------------------||
---------------------------||
---------------------------||
---------------------------||